  0
SECTION
  2
HEADER
  9
$ACADVER
  1
AC1009
  9
$INSBASE
 10
1462.533722494964
 20
2218.934659847839
 30
0.0
  9
$EXTMIN
 10
1462.533722494964
 20
2218.934659847839
 30
0.0
  9
$EXTMAX
 10
1673.79937394413
 20
2415.227462914766
 30
0.0
  9
$LIMMIN
 10
0.0
 20
0.0
  9
$LIMMAX
 10
4200.0
 20
2970.0
  9
$ORTHOMODE
 70
     1
  9
$REGENMODE
 70
     1
  9
$FILLMODE
 70
     1
  9
$QTEXTMODE
 70
     0
  9
$MIRRTEXT
 70
     0
  9
$DRAGMODE
 70
     2
  9
$LTSCALE
 40
10.0
  9
$OSMODE
 70
     0
  9
$ATTMODE
 70
     1
  9
$TEXTSIZE
 40
25.0
  9
$TRACEWID
 40
0.1
  9
$TEXTSTYLE
  7
STANDARD
  9
$CLAYER
  8
ITEM_50
  9
$CELTYPE
  6
BYLAYER
  9
$CECOLOR
 62
   256
  9
$DIMSCALE
 40
10.0
  9
$DIMASZ
 40
2.0
  9
$DIMEXO
 40
1.0
  9
$DIMDLI
 40
8.0
  9
$DIMRND
 40
0.0
  9
$DIMDLE
 40
0.0
  9
$DIMEXE
 40
2.0
  9
$DIMTP
 40
0.1
  9
$DIMTM
 40
0.1
  9
$DIMTXT
 40
3.5
  9
$DIMCEN
 40
2.0
  9
$DIMTSZ
 40
0.0
  9
$DIMTOL
 70
     0
  9
$DIMLIM
 70
     0
  9
$DIMTIH
 70
     0
  9
$DIMTOH
 70
     0
  9
$DIMSE1
 70
     0
  9
$DIMSE2
 70
     0
  9
$DIMTAD
 70
     1
  9
$DIMZIN
 70
     8
  9
$DIMBLK
  1

  9
$DIMASO
 70
     1
  9
$DIMSHO
 70
     1
  9
$DIMPOST
  1

  9
$DIMAPOST
  1

  9
$DIMALT
 70
     0
  9
$DIMALTD
 70
     2
  9
$DIMALTF
 40
25.39999999999999
  9
$DIMLFAC
 40
1.0
  9
$DIMTOFL
 70
     1
  9
$DIMTVP
 40
0.0
  9
$DIMTIX
 70
     0
  9
$DIMSOXD
 70
     0
  9
$DIMSAH
 70
     0
  9
$DIMBLK1
  1

  9
$DIMBLK2
  1

  9
$DIMSTYLE
  2
*UNNAMED
  9
$DIMCLRD
 70
     0
  9
$DIMCLRE
 70
     0
  9
$DIMCLRT
 70
     0
  9
$DIMTFAC
 40
1.0
  9
$DIMGAP
 40
0.09
  9
$LUNITS
 70
     2
  9
$LUPREC
 70
     3
  9
$SKETCHINC
 40
0.1
  9
$FILLETRAD
 40
3.0
  9
$AUNITS
 70
     0
  9
$AUPREC
 70
     1
  9
$MENU
  1

  9
$ELEVATION
 40
0.0
  9
$PELEVATION
 40
0.0
  9
$THICKNESS
 40
0.0
  9
$LIMCHECK
 70
     0
  9
$BLIPMODE
 70
     0
  9
$CHAMFERA
 40
5.0
  9
$CHAMFERB
 40
5.0
  9
$SKPOLY
 70
     1
  9
$TDCREATE
 40
2448804.490640393
  9
$TDUPDATE
 40
2449393.434062037
  9
$TDINDWG
 40
0.0017939815
  9
$TDUSRTIMER
 40
0.0017939815
  9
$USRTIMER
 70
     1
  9
$ANGBASE
 50
0.0
  9
$ANGDIR
 70
     0
  9
$PDMODE
 70
     0
  9
$PDSIZE
 40
0.0
  9
$PLINEWID
 40
0.0
  9
$COORDS
 70
     2
  9
$SPLFRAME
 70
     0
  9
$SPLINETYPE
 70
     6
  9
$SPLINESEGS
 70
     8
  9
$ATTDIA
 70
     1
  9
$ATTREQ
 70
     1
  9
$HANDLING
 70
     0
  9
$HANDSEED
  5
21C
  9
$SURFTAB1
 70
     6
  9
$SURFTAB2
 70
     6
  9
$SURFTYPE
 70
     6
  9
$SURFU
 70
     6
  9
$SURFV
 70
     6
  9
$UCSNAME
  2

  9
$UCSORG
 10
0.0
 20
0.0
 30
0.0
  9
$UCSXDIR
 10
1.0
 20
0.0
 30
0.0
  9
$UCSYDIR
 10
0.0
 20
1.0
 30
0.0
  9
$PUCSNAME
  2

  9
$PUCSORG
 10
0.0
 20
0.0
 30
0.0
  9
$PUCSXDIR
 10
1.0
 20
0.0
 30
0.0
  9
$PUCSYDIR
 10
0.0
 20
1.0
 30
0.0
  9
$USERI1
 70
     0
  9
$USERI2
 70
     3
  9
$USERI3
 70
    15
  9
$USERI4
 70
     0
  9
$USERI5
 70
     0
  9
$USERR1
 40
1.0
  9
$USERR2
 40
1.0
  9
$USERR3
 40
0.0
  9
$USERR4
 40
1.0
  9
$USERR5
 40
0.0
  9
$WORLDVIEW
 70
     5
  9
$SHADEDGE
 70
     3
  9
$SHADEDIF
 70
    70
  9
$TILEMODE
 70
     1
  9
$MAXACTVP
 70
    16
  9
$PINSBASE
 10
0.0
 20
0.0
 30
0.0
  9
$PLIMCHECK
 70
     0
  9
$PEXTMIN
 10
1.000000000000000E+20
 20
1.000000000000000E+20
 30
1.000000000000000E+20
  9
$PEXTMAX
 10
-1.000000000000000E+20
 20
-1.000000000000000E+20
 30
-1.000000000000000E+20
  9
$PLIMMIN
 10
0.0
 20
0.0
  9
$PLIMMAX
 10
12.0
 20
9.0
  9
$UNITMODE
 70
     0
  9
$VISRETAIN
 70
     0
  9
$PLINEGEN
 70
     0
  9
$PSLTSCALE
 70
     0
  9
$TREEDEPTH
 70
  3020
  9
$DWGCODEPAGE
  3
undefined
  0
ENDSEC
  0
SECTION
  2
TABLES
  0
TABLE
  2
VPORT
 70
     2
  0
VPORT
  2
*ACTIVE
 70
     0
 10
0.0
 20
0.0
 11
1.0
 21
1.0
 12
1598.046705817072
 22
2325.163057791016
 13
0.0
 23
0.0
 14
10.0
 24
10.0
 15
100.0
 25
100.0
 16
0.0
 26
0.0
 36
1.0
 17
0.0
 27
0.0
 37
0.0
 40
212.4567958863551
 41
1.275675675675675
 42
50.0
 43
0.0
 44
0.0
 50
0.0
 51
0.0
 71
     0
 72
   100
 73
     1
 74
     0
 75
     0
 76
     0
 77
     0
 78
     0
  0
ENDTAB
  0
TABLE
  2
LTYPE
 70
     4
  0
LTYPE
  2
CONTINUOUS
 70
    64
  3
Solid line
 72
    65
 73
     0
 40
0.0
  0
LTYPE
  2
GEN
 70
    64
  3
----------------------
 72
    65
 73
     2
 40
10000000000.0
 49
0.0
 49
10000000000.0
  0
LTYPE
  2
ITEM-STRICH
 70
    64
  3
- - - - -
 72
    65
 73
     2
 40
1.5
 49
1.2
 49
-0.3
  0
LTYPE
  2
ITEM-STRICHPUNKT
 70
    64
  3
__ . __ . __
 72
    65
 73
     4
 40
3.599999999999999
 49
2.399999999999999
 49
-0.6
 49
0.0
 49
-0.6
  0
ENDTAB
  0
TABLE
  2
LAYER
 70
     5
  0
LAYER
  2
0
 70
     0
 62
     7
  6
GEN
  0
LAYER
  2
ITEM_50
 70
    64
 62
     7
  6
CONTINUOUS
  0
LAYER
  2
ITEM_25
 70
    64
 62
     3
  6
CONTINUOUS
  0
LAYER
  2
ITEM_STP
 70
    64
 62
     4
  6
ITEM-STRICHPUNKT
  0
LAYER
  2
ITEM_GSTR
 70
    64
 62
     6
  6
ITEM-STRICH
  0
ENDTAB
  0
TABLE
  2
STYLE
 70
     1
  0
STYLE
  2
STANDARD
 70
     0
 40
0.0
 41
1.0
 50
0.0
 71
     0
 42
25.0
  3
ISO8
  4

  0
ENDTAB
  0
TABLE
  2
VIEW
 70
     0
  0
ENDTAB
  0
TABLE
  2
UCS
 70
     0
  0
ENDTAB
  0
TABLE
  2
APPID
 70
     1
  0
APPID
  2
ACAD
 70
    64
  0
ENDTAB
  0
TABLE
  2
DIMSTYLE
 70
     0
  0
ENDTAB
  0
ENDSEC
  0
SECTION
  2
BLOCKS
  0
ENDSEC
  0
SECTION
  2
ENTITIES
  0
LINE
  8
ITEM_50
 10
1462.533722494964
 20
2349.227462914766
 30
0.0
 11
1518.533722494964
 21
2349.227462914766
 31
0.0
  0
LINE
  8
ITEM_50
 10
1462.533722494964
 20
2409.227462914766
 30
0.0
 11
1462.533722494964
 21
2349.227462914766
 31
0.0
  0
LINE
  8
ITEM_50
 10
1518.533722494964
 20
2409.227462914766
 30
0.0
 11
1462.533722494964
 21
2409.227462914766
 31
0.0
  0
LINE
  8
ITEM_50
 10
1474.533722494964
 20
2355.127462914766
 30
0.0
 11
1510.533722494964
 21
2355.127462914766
 31
0.0
  0
LINE
  8
ITEM_50
 10
1474.533722494964
 20
2363.327462914766
 30
0.0
 11
1510.533722494964
 21
2363.327462914766
 31
0.0
  0
LINE
  8
ITEM_50
 10
1485.519347358519
 20
2395.127462914766
 30
0.0
 11
1499.548097631409
 21
2395.127462914766
 31
0.0
  0
LINE
  8
ITEM_50
 10
1485.519347358519
 20
2403.327462914766
 30
0.0
 11
1499.548097631409
 21
2403.327462914766
 31
0.0
  0
ARC
  8
ITEM_50
 10
1474.533722494964
 20
2359.227462914766
 30
0.0
 40
4.099999999999999
 50
90.0
 51
270.0
  0
ARC
  8
ITEM_50
 10
1474.533722494964
 20
2399.227462914766
 30
0.0
 40
4.099999999999999
 50
95.23279229794265
 51
264.7672077020573
  0
ARC
  8
ITEM_50
 10
1510.533722494964
 20
2399.227462914766
 30
0.0
 40
4.099999999999999
 50
275.2327922979394
 51
0.0
  0
LINE
  8
ITEM_50
 10
1598.79937394413
 20
2409.227462914766
 30
0.0
 11
1655.79937394413
 21
2409.227462914766
 31
0.0
  0
LINE
  8
ITEM_50
 10
1598.79937394413
 20
2349.227462914766
 30
0.0
 11
1655.79937394413
 21
2349.227462914766
 31
0.0
  0
LINE
  8
ITEM_50
 10
1655.79937394413
 20
2409.227462914766
 30
0.0
 11
1655.79937394413
 21
2349.227462914766
 31
0.0
  0
LINE
  8
ITEM_STP
 10
1642.79937394413
 20
2363.706591122238
 30
0.0
 11
1642.79937394413
 21
2354.206436821197
 31
0.0
  0
LINE
  8
ITEM_STP
 10
1611.79937394413
 20
2404.133438766942
 30
0.0
 11
1611.79937394413
 21
2394.79211981586
 31
0.0
  0
LINE
  8
ITEM_50
 10
1598.79937394413
 20
2409.227462914766
 30
0.0
 11
1598.79937394413
 21
2349.227462914766
 31
0.0
  0
LINE
  8
ITEM_STP
 10
1608.94244071646
 20
2399.227462914766
 30
0.0
 11
1615.876791708628
 21
2399.227462914766
 31
0.0
  0
LINE
  8
ITEM_STP
 10
1616.21564274787
 20
2359.227462914766
 30
0.0
 11
1606.365964436764
 21
2359.227462914766
 31
0.0
  0
LINE
  8
ITEM_50
 10
1602.79937394413
 20
2409.227462914766
 30
0.0
 11
1602.79937394413
 21
2349.227462914766
 31
0.0
  0
LINE
  8
ITEM_50
 10
1603.79937394413
 20
2406.227462914766
 30
0.0
 11
1603.79937394413
 21
2392.227462914766
 31
0.0
  0
ARC
  8
ITEM_50
 10
1601.195784023095
 20
2399.544231985834
 30
0.0
 40
7.5
 50
20.96294655374176
 51
63.01147843789148
  0
LINE
  8
ITEM_50
 10
1608.19937394413
 20
2396.227462914766
 30
0.0
 11
1608.19937394413
 21
2402.227462914766
 31
0.0
  0
LINE
  8
ITEM_50
 10
1604.59937394413
 20
2406.227462914766
 30
0.0
 11
1603.79937394413
 21
2406.227462914766
 31
0.0
  0
LINE
  8
ITEM_GSTR
 10
1608.19937394413
 20
2396.227462914765
 30
0.0
 11
1604.999373944131
 21
2396.227462914765
 31
0.0
  0
LINE
  8
ITEM_GSTR
 10
1604.999373944131
 20
2396.227462914765
 30
0.0
 11
1604.999373944131
 21
2402.227462914765
 31
0.0
  0
LINE
  8
ITEM_GSTR
 10
1604.999373944131
 20
2402.227462914765
 30
0.0
 11
1608.19937394413
 21
2402.227462914765
 31
0.0
  0
LINE
  8
ITEM_GSTR
 10
1608.19937394413
 20
2397.727462914765
 30
0.0
 11
1604.999373944131
 21
2397.727462914765
 31
0.0
  0
LINE
  8
ITEM_GSTR
 10
1608.19937394413
 20
2400.727462914765
 30
0.0
 11
1604.999373944131
 21
2400.727462914765
 31
0.0
  0
LINE
  8
ITEM_GSTR
 10
1604.999373944131
 20
2396.227462914765
 30
0.0
 11
1603.499373944131
 21
2399.227462914765
 31
0.0
  0
LINE
  8
ITEM_GSTR
 10
1603.499373944131
 20
2399.227462914765
 30
0.0
 11
1604.999373944131
 21
2402.227462914765
 31
0.0
  0
LINE
  8
ITEM_50
 10
1594.29937394413
 20
2403.227462914765
 30
0.0
 11
1598.79937394413
 21
2403.227462914765
 31
0.0
  0
LINE
  8
ITEM_25
 10
1594.29937394413
 20
2396.092462914766
 30
0.0
 11
1598.79937394413
 21
2396.092462914766
 31
0.0
  0
LINE
  8
ITEM_25
 10
1594.29937394413
 20
2402.362462914766
 30
0.0
 11
1598.79937394413
 21
2402.362462914766
 31
0.0
  0
LINE
  8
ITEM_50
 10
1598.79937394413
 20
2395.227462914765
 30
0.0
 11
1594.29937394413
 21
2395.227462914765
 31
0.0
  0
LINE
  8
ITEM_STP
 10
1613.19937394413
 20
2399.227462914766
 30
0.0
 11
1584.79937394413
 21
2399.227462914766
 31
0.0
  0
ARC
  8
ITEM_50
 10
1601.195784023095
 20
2398.910693843698
 30
0.0
 40
7.5
 50
296.9885215621085
 51
339.0370534462582
  0
LINE
  8
ITEM_50
 10
1603.79937394413
 20
2406.227462914766
 30
0.0
 11
1603.79937394413
 21
2392.227462914766
 31
0.0
  0
LINE
  8
ITEM_50
 10
1603.79937394413
 20
2392.227462914766
 30
0.0
 11
1604.59937394413
 21
2392.227462914766
 31
0.0
  0
LINE
  8
ITEM_50
 10
1604.59937394413
 20
2392.227462914766
 30
0.0
 11
1604.59937394413
 21
2406.227462914766
 31
0.0
  0
LINE
  8
ITEM_50
 10
1603.79937394413
 20
2406.227462914766
 30
0.0
 11
1602.79937394413
 21
2406.227462914766
 31
0.0
  0
LINE
  8
ITEM_50
 10
1603.79937394413
 20
2392.227462914766
 30
0.0
 11
1602.79937394413
 21
2392.227462914766
 31
0.0
  0
LINE
  8
ITEM_STP
 10
1585.33880723744
 20
2408.727462914766
 30
0.0
 11
1596.514100430785
 21
2408.727462914766
 31
0.0
  0
LINE
  8
ITEM_50
 10
1586.99937394413
 20
2415.227462914766
 30
0.0
 11
1594.29937394413
 21
2415.227462914766
 31
0.0
  0
LINE
  8
ITEM_50
 10
1594.29937394413
 20
2415.227462914766
 30
0.0
 11
1594.29937394413
 21
2392.227462914766
 31
0.0
  0
LINE
  8
ITEM_50
 10
1594.29937394413
 20
2392.227462914766
 30
0.0
 11
1586.99937394413
 21
2392.227462914766
 31
0.0
  0
LINE
  8
ITEM_50
 10
1586.99937394413
 20
2392.227462914766
 30
0.0
 11
1586.99937394413
 21
2395.327462914765
 31
0.0
  0
ARC
  8
ITEM_50
 10
1583.564625044991
 20
2408.727462914766
 30
0.0
 40
4.000000000016514
 50
329.1695025683526
 51
30.83049743164612
  0
ARC
  8
ITEM_50
 10
1583.469915290853
 20
2399.227462914766
 30
0.0
 40
5.259950416609412
 50
312.1447612675378
 51
47.85523873246263
  0
LINE
  8
ITEM_50
 10
1586.99937394413
 20
2403.127462914766
 30
0.0
 11
1586.99937394413
 21
2406.677462914766
 31
0.0
  0
LINE
  8
ITEM_50
 10
1586.99937394413
 20
2410.777462914766
 30
0.0
 11
1586.99937394413
 21
2415.227462914766
 31
0.0
  0
ARC
  8
ITEM_50
 10
1588.549373944129
 20
2408.727462914766
 30
0.0
 40
2.0
 50
130.1170700630449
 51
229.8829299369545
  0
LINE
  8
ITEM_50
 10
1506.66509648538
 20
2401.727462914766
 30
0.0
 11
1503.778345139432
 21
2401.727462914766
 31
0.0
  0
LINE
  8
ITEM_50
 10
1508.108472158354
 20
2399.227462914766
 30
0.0
 11
1506.66509648538
 21
2401.727462914766
 31
0.0
  0
LINE
  8
ITEM_50
 10
1506.66509648538
 20
2396.727462914766
 30
0.0
 11
1508.108472158354
 21
2399.227462914766
 31
0.0
  0
LINE
  8
ITEM_50
 10
1503.778345139432
 20
2396.727462914766
 30
0.0
 11
1506.66509648538
 21
2396.727462914766
 31
0.0
  0
LINE
  8
ITEM_50
 10
1502.334969466458
 20
2399.227462914766
 30
0.0
 11
1503.778345139432
 21
2396.727462914766
 31
0.0
  0
LINE
  8
ITEM_50
 10
1503.778345139432
 20
2401.727462914766
 30
0.0
 11
1502.334969466458
 21
2399.227462914766
 31
0.0
  0
CIRCLE
  8
ITEM_50
 10
1505.221720812406
 20
2399.227462914766
 30
0.0
 40
3.0
  0
LINE
  8
ITEM_STP
 10
1505.221720812406
 20
2399.227462914766
 30
0.0
 11
1515.300015467883
 21
2399.227462914766
 31
0.0
  0
LINE
  8
ITEM_STP
 10
1505.221720812406
 20
2399.227462914766
 30
0.0
 11
1505.221720812406
 21
2408.183286207939
 31
0.0
  0
LINE
  8
ITEM_STP
 10
1505.221720812406
 20
2399.227462914766
 30
0.0
 11
1496.265897519233
 21
2399.227462914766
 31
0.0
  0
LINE
  8
ITEM_STP
 10
1505.221720812406
 20
2399.227462914766
 30
0.0
 11
1505.221720812406
 21
2390.271639621593
 31
0.0
  0
LINE
  8
ITEM_STP
 10
1479.845724177522
 20
2399.227462914766
 30
0.0
 11
1479.845724177522
 21
2390.271639621593
 31
0.0
  0
LINE
  8
ITEM_STP
 10
1488.801547470695
 20
2399.227462914766
 30
0.0
 11
1471.027631712244
 21
2399.227462914766
 31
0.0
  0
CIRCLE
  8
ITEM_50
 10
1479.845724177522
 20
2399.227462914766
 30
0.0
 40
7.0
  0
CIRCLE
  8
ITEM_50
 10
1479.845724177522
 20
2399.227462914766
 30
0.0
 40
3.0
  0
LINE
  8
ITEM_50
 10
1481.289099850496
 20
2401.727462914766
 30
0.0
 11
1482.73247552347
 21
2399.227462914766
 31
0.0
  0
LINE
  8
ITEM_50
 10
1482.73247552347
 20
2399.227462914766
 30
0.0
 11
1481.289099850496
 21
2396.727462914766
 31
0.0
  0
LINE
  8
ITEM_50
 10
1481.289099850496
 20
2396.727462914766
 30
0.0
 11
1478.402348504548
 21
2396.727462914766
 31
0.0
  0
LINE
  8
ITEM_50
 10
1478.402348504548
 20
2396.727462914766
 30
0.0
 11
1476.958972831574
 21
2399.227462914766
 31
0.0
  0
LINE
  8
ITEM_50
 10
1476.958972831574
 20
2399.227462914766
 30
0.0
 11
1478.402348504548
 21
2401.727462914766
 31
0.0
  0
LINE
  8
ITEM_50
 10
1478.402348504548
 20
2401.727462914766
 30
0.0
 11
1481.289099850496
 21
2401.727462914766
 31
0.0
  0
LINE
  8
ITEM_50
 10
1472.945724177522
 20
2414.727462914766
 30
0.0
 11
1486.745724177522
 21
2414.727462914766
 31
0.0
  0
LINE
  8
ITEM_50
 10
1472.945724177522
 20
2409.227462914766
 30
0.0
 11
1472.945724177522
 21
2414.727462914766
 31
0.0
  0
LINE
  8
ITEM_50
 10
1486.745724177522
 20
2414.727462914766
 30
0.0
 11
1486.745724177522
 21
2409.227462914766
 31
0.0
  0
LINE
  8
ITEM_STP
 10
1475.045724177522
 20
2399.227462914766
 30
0.0
 11
1484.645724177522
 21
2399.227462914766
 31
0.0
  0
LINE
  8
ITEM_STP
 10
1479.845724177522
 20
2394.427462914766
 30
0.0
 11
1479.845724177522
 21
2407.78358564822
 31
0.0
  0
LINE
  8
ITEM_50
 10
1512.121720812406
 20
2414.727462914766
 30
0.0
 11
1512.121720812406
 21
2409.227462914766
 31
0.0
  0
LINE
  8
ITEM_50
 10
1498.321720812405
 20
2409.227462914766
 30
0.0
 11
1498.321720812406
 21
2414.727462914766
 31
0.0
  0
LINE
  8
ITEM_50
 10
1498.321720812406
 20
2414.727462914766
 30
0.0
 11
1512.121720812406
 21
2414.727462914766
 31
0.0
  0
LINE
  8
ITEM_STP
 10
1531.185702107375
 20
2399.227462914766
 30
0.0
 11
1502.785702107375
 21
2399.227462914766
 31
0.0
  0
LINE
  8
ITEM_50
 10
1516.103722494964
 20
2396.727462914766
 30
0.0
 11
1516.103722494964
 21
2401.727462914766
 31
0.0
  0
LINE
  8
ITEM_50
 10
1516.103722494964
 20
2396.727462914766
 30
0.0
 11
1515.533722494964
 21
2397.297462914766
 31
0.0
  0
LINE
  8
ITEM_50
 10
1515.533722494964
 20
2397.297462914766
 30
0.0
 11
1515.533722494964
 21
2399.227462914766
 31
0.0
  0
LINE
  8
ITEM_50
 10
1515.533722494964
 20
2399.227462914766
 30
0.0
 11
1515.533722494964
 21
2401.157462914766
 31
0.0
  0
LINE
  8
ITEM_50
 10
1515.533722494964
 20
2401.157462914766
 30
0.0
 11
1516.103722494964
 21
2401.727462914766
 31
0.0
  0
LINE
  8
ITEM_50
 10
1516.103722494964
 20
2401.727462914766
 30
0.0
 11
1518.533722494964
 21
2401.727462914766
 31
0.0
  0
LINE
  8
ITEM_25
 10
1515.533722494964
 20
2397.297462914766
 30
0.0
 11
1518.533722494964
 21
2397.297462914766
 31
0.0
  0
LINE
  8
ITEM_25
 10
1515.533722494964
 20
2401.157462914766
 30
0.0
 11
1518.533722494964
 21
2401.157462914766
 31
0.0
  0
LINE
  8
ITEM_STP
 10
1507.943792410822
 20
2399.227462914766
 30
0.0
 11
1524.083593066035
 21
2399.227462914766
 31
0.0
  0
ARC
  8
ITEM_50
 10
1510.533722494964
 20
2399.227462914766
 30
0.0
 40
4.099999999999999
 50
0.0
 51
84.76720770206051
  0
LINE
  8
ITEM_50
 10
1518.533722494964
 20
2396.727462914766
 30
0.0
 11
1516.103722494964
 21
2396.727462914766
 31
0.0
  0
LINE
  8
ITEM_STP
 10
1611.79937394413
 20
2363.88084446018
 30
0.0
 11
1611.79937394413
 21
2354.539525509098
 31
0.0
  0
LINE
  8
ITEM_STP
 10
1648.150226938796
 20
2399.227462914766
 30
0.0
 11
1638.469275449771
 21
2399.227462914766
 31
0.0
  0
LINE
  8
ITEM_STP
 10
1648.489077978038
 20
2359.227462914766
 30
0.0
 11
1638.639399666932
 21
2359.227462914766
 31
0.0
  0
LINE
  8
ITEM_STP
 10
1642.79937394413
 20
2404.468711939212
 30
0.0
 11
1642.79937394413
 21
2394.968557638171
 31
0.0
  0
ARC
  8
ITEM_50
 10
1510.533722494964
 20
2359.227462914766
 30
0.0
 40
4.099999999999999
 50
270.0
 51
90.0
  0
LINE
  8
ITEM_50
 10
1522.533722494964
 20
2218.934659847839
 30
0.0
 11
1522.533722494964
 21
2293.934659847839
 31
0.0
  0
LINE
  8
ITEM_50
 10
1552.533722494964
 20
2218.934659847839
 30
0.0
 11
1552.533722494964
 21
2293.934659847839
 31
0.0
  0
LINE
  8
ITEM_50
 10
1522.533722494964
 20
2218.934659847839
 30
0.0
 11
1552.533722494964
 21
2218.934659847839
 31
0.0
  0
LINE
  8
ITEM_50
 10
1522.533722494964
 20
2293.934659847839
 30
0.0
 11
1552.533722494964
 21
2293.934659847839
 31
0.0
  0
LINE
  8
ITEM_STP
 10
1535.533722494964
 20
2267.922232844618
 30
0.0
 11
1535.533722494964
 21
2288.859057169234
 31
0.0
  0
LINE
  8
ITEM_STP
 10
1545.843933595036
 20
2278.434659847839
 30
0.0
 11
1525.244839808035
 21
2278.434659847839
 31
0.0
  0
LINE
  8
ITEM_50
 10
1531.533722494964
 20
2238.934659847839
 30
0.0
 11
1552.533722494964
 21
2238.934659847839
 31
0.0
  0
LINE
  8
ITEM_50
 10
1531.533722494964
 20
2263.934659847839
 30
0.0
 11
1535.83308214092
 21
2263.934659847839
 31
0.0
  0
LINE
  8
ITEM_50
 10
1531.533722494964
 20
2242.934659847839
 30
0.0
 11
1552.533722494964
 21
2242.934659847839
 31
0.0
  0
LINE
  8
ITEM_50
 10
1531.533722494964
 20
2238.934659847839
 30
0.0
 11
1531.533722494964
 21
2263.934659847839
 31
0.0
  0
CIRCLE
  8
ITEM_50
 10
1535.533722494964
 20
2278.434659847838
 30
0.0
 40
8.0
  0
ARC
  8
ITEM_25
 10
1535.533722494964
 20
2278.434659847838
 30
0.0
 40
8.75
 50
269.9999999999985
 51
207.9805744987702
  0
ARC
  8
ITEM_50
 10
1535.533722494964
 20
2278.434659847839
 30
0.0
 40
14.50308988448587
 50
268.8172684171627
 51
300.4710719339664
  0
LINE
  8
ITEM_50
 10
1542.888286805487
 20
2265.934659847839
 30
0.0
 11
1552.533722494964
 21
2265.934659847839
 31
0.0
  0
LINE
  8
ITEM_50
 10
1462.533722494964
 20
2293.934659847839
 30
0.0
 11
1522.533722494964
 21
2293.934659847839
 31
0.0
  0
LINE
  8
ITEM_50
 10
1518.533722494964
 20
2236.934659847839
 30
0.0
 11
1522.533722494964
 21
2236.934659847839
 31
0.0
  0
LINE
  8
ITEM_50
 10
1518.533722494964
 20
2289.934659847839
 30
0.0
 11
1518.533722494964
 21
2236.934659847839
 31
0.0
  0
LINE
  8
ITEM_50
 10
1462.533722494964
 20
2289.934659847839
 30
0.0
 11
1518.533722494964
 21
2289.934659847839
 31
0.0
  0
LINE
  8
ITEM_50
 10
1462.533722494964
 20
2293.934659847839
 30
0.0
 11
1462.533722494964
 21
2289.934659847839
 31
0.0
  0
LINE
  8
ITEM_25
 10
1482.980724177522
 20
2298.434659847839
 30
0.0
 11
1482.980724177522
 21
2293.934659847839
 31
0.0
  0
LINE
  8
ITEM_50
 10
1483.845724177522
 20
2298.434659847839
 30
0.0
 11
1483.845724177522
 21
2293.934659847839
 31
0.0
  0
LINE
  8
ITEM_50
 10
1475.845724177522
 20
2293.934659847839
 30
0.0
 11
1475.845724177522
 21
2298.434659847839
 31
0.0
  0
LINE
  8
ITEM_25
 10
1476.710724177522
 20
2298.434659847839
 30
0.0
 11
1476.710724177522
 21
2293.934659847839
 31
0.0
  0
LINE
  8
ITEM_50
 10
1475.845724177522
 20
2298.434659847839
 30
0.0
 11
1483.845724177522
 21
2298.434659847839
 31
0.0
  0
LINE
  8
ITEM_50
 10
1501.221720812406
 20
2298.434659847839
 30
0.0
 11
1509.221720812406
 21
2298.434659847839
 31
0.0
  0
LINE
  8
ITEM_25
 10
1502.086720812406
 20
2298.434659847839
 30
0.0
 11
1502.086720812406
 21
2293.934659847839
 31
0.0
  0
LINE
  8
ITEM_50
 10
1501.221720812406
 20
2293.934659847839
 30
0.0
 11
1501.221720812406
 21
2298.434659847839
 31
0.0
  0
LINE
  8
ITEM_50
 10
1509.221720812406
 20
2298.434659847839
 30
0.0
 11
1509.221720812406
 21
2293.934659847839
 31
0.0
  0
LINE
  8
ITEM_25
 10
1508.356720812406
 20
2298.434659847839
 30
0.0
 11
1508.356720812406
 21
2293.934659847839
 31
0.0
  0
ARC
  8
ITEM_50
 10
1479.845724177522
 20
2304.184659847838
 30
0.0
 40
1.999999999999975
 50
37.7335176421787
 51
142.2664823578201
  0
LINE
  8
ITEM_STP
 10
1479.845724177522
 20
2310.734659847838
 30
0.0
 11
1479.845724177522
 21
2283.309918208957
 31
0.0
  0
POLYLINE
  8
ITEM_50
 66
     1
 10
0.0
 20
0.0
 30
0.0
  0
VERTEX
  8
ITEM_50
 10
1472.945724177521
 20
2298.434659847839
 30
0.0
  0
VERTEX
  8
ITEM_50
 10
1486.745724177523
 20
2298.434659847839
 30
0.0
 42
0.1195144806062147
  0
SEQEND
  8
ITEM_50
  0
ARC
  8
ITEM_50
 10
1505.221720812406
 20
2304.184659847838
 30
0.0
 40
1.999999999999975
 50
37.7335176421787
 51
142.2664823578201
  0
LINE
  8
ITEM_STP
 10
1505.221720812406
 20
2310.734659847838
 30
0.0
 11
1505.221720812406
 21
2287.789955093521
 31
0.0
  0
POLYLINE
  8
ITEM_50
 66
     1
 10
0.0
 20
0.0
 30
0.0
  0
VERTEX
  8
ITEM_50
 10
1498.321720812405
 20
2298.434659847839
 30
0.0
  0
VERTEX
  8
ITEM_50
 10
1512.121720812406
 20
2298.434659847839
 30
0.0
 42
0.1195144806062147
  0
SEQEND
  8
ITEM_50
  0
ARC
  8
ITEM_50
 10
1471.736884819686
 20
2292.8872712023
 30
0.0
 40
16.00121181829661
 50
20.28472096232701
 51
47.54611505508627
  0
ARC
  8
ITEM_50
 10
1479.845724177522
 20
2301.734659847838
 30
0.0
 40
4.000000000000442
 50
47.70244189670634
 51
89.99999999999349
  0
ARC
  8
ITEM_50
 10
1479.845724177522
 20
2301.734659847839
 30
0.0
 40
4.0
 50
90.00000000000325
 51
132.297558103238
  0
ARC
  8
ITEM_50
 10
1487.954563535365
 20
2292.887271202295
 30
0.0
 40
16.00121181830499
 50
132.4538849449052
 51
159.7152790376649
  0
ARC
  8
ITEM_50
 10
1497.11288145457
 20
2292.8872712023
 30
0.0
 40
16.00121181829661
 50
20.28472096232701
 51
47.54611505508627
  0
ARC
  8
ITEM_50
 10
1505.221720812405
 20
2301.734659847838
 30
0.0
 40
4.000000000000442
 50
47.70244189670634
 51
89.99999999999349
  0
ARC
  8
ITEM_50
 10
1505.221720812406
 20
2301.734659847839
 30
0.0
 40
4.0
 50
90.00000000000325
 51
132.297558103238
  0
ARC
  8
ITEM_50
 10
1513.330560170249
 20
2292.887271202295
 30
0.0
 40
16.00121181830499
 50
132.4538849449052
 51
159.7152790376649
  0
LINE
  8
ITEM_50
 10
1472.845724177522
 20
2288.934659847839
 30
0.0
 11
1472.845724177522
 21
2289.934659847839
 31
0.0
  0
LINE
  8
ITEM_50
 10
1486.845724177522
 20
2288.934659847839
 30
0.0
 11
1486.845724177522
 21
2289.934659847839
 31
0.0
  0
LINE
  8
ITEM_50
 10
1472.845724177522
 20
2288.134659847838
 30
0.0
 11
1486.845724177522
 21
2288.134659847838
 31
0.0
  0
LINE
  8
ITEM_50
 10
1472.845724177522
 20
2288.934659847839
 30
0.0
 11
1472.845724177522
 21
2288.134659847838
 31
0.0
  0
LINE
  8
ITEM_50
 10
1486.845724177522
 20
2288.934659847839
 30
0.0
 11
1472.845724177522
 21
2288.934659847839
 31
0.0
  0
ARC
  8
ITEM_50
 10
1479.528955106454
 20
2291.538249768873
 30
0.0
 40
7.5
 50
206.9885215621085
 51
249.0370534462582
  0
LINE
  8
ITEM_GSTR
 10
1479.845724177522
 20
2289.234659847837
 30
0.0
 11
1482.845724177522
 21
2287.734659847837
 31
0.0
  0
LINE
  8
ITEM_GSTR
 10
1476.845724177522
 20
2287.734659847837
 30
0.0
 11
1479.845724177522
 21
2289.234659847837
 31
0.0
  0
LINE
  8
ITEM_GSTR
 10
1481.345724177522
 20
2284.534659847838
 30
0.0
 11
1481.345724177522
 21
2287.734659847837
 31
0.0
  0
LINE
  8
ITEM_GSTR
 10
1478.345724177522
 20
2284.534659847838
 30
0.0
 11
1478.345724177522
 21
2287.734659847837
 31
0.0
  0
LINE
  8
ITEM_GSTR
 10
1482.845724177522
 20
2287.734659847837
 30
0.0
 11
1482.845724177522
 21
2284.534659847838
 31
0.0
  0
LINE
  8
ITEM_GSTR
 10
1476.845724177522
 20
2287.734659847837
 30
0.0
 11
1482.845724177522
 21
2287.734659847837
 31
0.0
  0
LINE
  8
ITEM_GSTR
 10
1476.845724177522
 20
2284.534659847838
 30
0.0
 11
1476.845724177522
 21
2287.734659847837
 31
0.0
  0
LINE
  8
ITEM_50
 10
1486.845724177522
 20
2288.134659847838
 30
0.0
 11
1486.845724177522
 21
2288.934659847839
 31
0.0
  0
LINE
  8
ITEM_50
 10
1476.845724177522
 20
2284.534659847838
 30
0.0
 11
1482.845724177522
 21
2284.534659847838
 31
0.0
  0
ARC
  8
ITEM_50
 10
1480.16249324859
 20
2291.538249768873
 30
0.0
 40
7.5
 50
290.9629465537417
 51
333.0114784378914
  0
LINE
  8
ITEM_50
 10
1486.845724177522
 20
2288.934659847839
 30
0.0
 11
1472.845724177522
 21
2288.934659847839
 31
0.0
  0
LINE
  8
ITEM_50
 10
1512.221720812406
 20
2288.934659847839
 30
0.0
 11
1498.221720812406
 21
2288.934659847839
 31
0.0
  0
ARC
  8
ITEM_50
 10
1505.538489883474
 20
2291.538249768873
 30
0.0
 40
7.5
 50
290.9629465537417
 51
333.0114784378914
  0
LINE
  8
ITEM_50
 10
1502.221720812406
 20
2284.534659847838
 30
0.0
 11
1508.221720812406
 21
2284.534659847838
 31
0.0
  0
LINE
  8
ITEM_50
 10
1512.221720812406
 20
2288.134659847838
 30
0.0
 11
1512.221720812406
 21
2288.934659847839
 31
0.0
  0
LINE
  8
ITEM_GSTR
 10
1502.221720812405
 20
2284.534659847838
 30
0.0
 11
1502.221720812405
 21
2287.734659847837
 31
0.0
  0
LINE
  8
ITEM_GSTR
 10
1502.221720812405
 20
2287.734659847837
 30
0.0
 11
1508.221720812405
 21
2287.734659847837
 31
0.0
  0
LINE
  8
ITEM_GSTR
 10
1508.221720812405
 20
2287.734659847837
 30
0.0
 11
1508.221720812405
 21
2284.534659847838
 31
0.0
  0
LINE
  8
ITEM_GSTR
 10
1503.721720812405
 20
2284.534659847838
 30
0.0
 11
1503.721720812405
 21
2287.734659847837
 31
0.0
  0
LINE
  8
ITEM_GSTR
 10
1506.721720812405
 20
2284.534659847838
 30
0.0
 11
1506.721720812405
 21
2287.734659847837
 31
0.0
  0
LINE
  8
ITEM_GSTR
 10
1502.221720812405
 20
2287.734659847837
 30
0.0
 11
1505.221720812405
 21
2289.234659847837
 31
0.0
  0
LINE
  8
ITEM_GSTR
 10
1505.221720812405
 20
2289.234659847837
 30
0.0
 11
1508.221720812405
 21
2287.734659847837
 31
0.0
  0
ARC
  8
ITEM_50
 10
1504.904951741337
 20
2291.538249768873
 30
0.0
 40
7.5
 50
206.9885215621085
 51
249.0370534462582
  0
LINE
  8
ITEM_50
 10
1512.221720812406
 20
2288.934659847839
 30
0.0
 11
1498.221720812406
 21
2288.934659847839
 31
0.0
  0
LINE
  8
ITEM_50
 10
1498.221720812406
 20
2288.934659847839
 30
0.0
 11
1498.221720812406
 21
2288.134659847838
 31
0.0
  0
LINE
  8
ITEM_50
 10
1498.221720812406
 20
2288.134659847838
 30
0.0
 11
1512.221720812406
 21
2288.134659847838
 31
0.0
  0
LINE
  8
ITEM_50
 10
1512.221720812406
 20
2288.934659847839
 30
0.0
 11
1512.221720812406
 21
2289.934659847839
 31
0.0
  0
LINE
  8
ITEM_50
 10
1498.221720812406
 20
2288.934659847839
 30
0.0
 11
1498.221720812406
 21
2289.934659847839
 31
0.0
  0
LINE
  8
ITEM_50
 10
1518.533722494964
 20
2409.227462914766
 30
0.0
 11
1518.533722494964
 21
2349.227462914766
 31
0.0
  0
LINE
  8
ITEM_50
 10
1518.533722494964
 20
2349.227462914766
 30
0.0
 11
1522.533722494964
 21
2349.227462914766
 31
0.0
  0
LINE
  8
ITEM_50
 10
1522.533722494964
 20
2349.227462914766
 30
0.0
 11
1522.533722494964
 21
2409.227462914766
 31
0.0
  0
LINE
  8
ITEM_50
 10
1522.533722494964
 20
2409.227462914766
 30
0.0
 11
1518.533722494964
 21
2409.227462914766
 31
0.0
  0
LINE
  8
ITEM_50
 10
1462.533722494964
 20
2353.227462914766
 30
0.0
 11
1518.533722494964
 21
2353.227462914766
 31
0.0
  0
LINE
  8
ITEM_50
 10
1522.533722494964
 20
2405.227462914766
 30
0.0
 11
1552.533722494964
 21
2405.227462914766
 31
0.0
  0
LINE
  8
ITEM_50
 10
1522.533722494964
 20
2353.227462914766
 30
0.0
 11
1552.533722494964
 21
2353.227462914766
 31
0.0
  0
LINE
  8
ITEM_50
 10
1552.533722494964
 20
2353.227462914766
 30
0.0
 11
1552.533722494964
 21
2405.227462914766
 31
0.0
  0
LINE
  8
ITEM_50
 10
1531.533722494964
 20
2263.934659847839
 30
0.0
 11
1531.533722494964
 21
2218.934659847839
 31
0.0
  0
CIRCLE
  8
ITEM_50
 10
1505.221720812406
 20
2399.227462914766
 30
0.0
 40
7.0
  0
LINE
  8
ITEM_50
 10
1673.79937394413
 20
2405.227462914766
 30
0.0
 11
1673.79937394413
 21
2353.227462914766
 31
0.0
  0
LINE
  8
ITEM_50
 10
1655.79937394413
 20
2405.227462914766
 30
0.0
 11
1673.79937394413
 21
2405.227462914766
 31
0.0
  0
LINE
  8
ITEM_50
 10
1655.79937394413
 20
2353.227462914766
 30
0.0
 11
1673.79937394413
 21
2353.227462914766
 31
0.0
  0
LINE
  8
ITEM_50
 10
1518.533722494964
 20
2278.434659847838
 30
0.0
 11
1516.103722494964
 21
2278.434659847838
 31
0.0
  0
LINE
  8
ITEM_25
 10
1515.533722494964
 20
2282.864659847838
 30
0.0
 11
1518.533722494964
 21
2282.864659847838
 31
0.0
  0
LINE
  8
ITEM_25
 10
1515.533722494964
 20
2279.004659847838
 30
0.0
 11
1518.533722494964
 21
2279.004659847838
 31
0.0
  0
LINE
  8
ITEM_50
 10
1516.103722494964
 20
2283.434659847838
 30
0.0
 11
1518.533722494964
 21
2283.434659847838
 31
0.0
  0
LINE
  8
ITEM_50
 10
1515.533722494964
 20
2282.864659847838
 30
0.0
 11
1516.103722494964
 21
2283.434659847838
 31
0.0
  0
LINE
  8
ITEM_50
 10
1515.533722494964
 20
2279.004659847838
 30
0.0
 11
1515.533722494964
 21
2282.864659847838
 31
0.0
  0
LINE
  8
ITEM_50
 10
1516.103722494964
 20
2278.434659847838
 30
0.0
 11
1515.533722494964
 21
2279.004659847838
 31
0.0
  0
LINE
  8
ITEM_50
 10
1516.103722494964
 20
2278.434659847838
 30
0.0
 11
1516.103722494964
 21
2283.434659847838
 31
0.0
  0
LINE
  8
ITEM_STP
 10
1523.26450668059
 20
2280.934659847838
 30
0.0
 11
1513.077839447259
 21
2280.934659847838
 31
0.0
  0
ENDSEC
  0
EOF
